ISO-10303-21;
HEADER;
FILE_DESCRIPTION (( 'STEP AP203' ),
    '1' );
FILE_NAME ('BK7-BSC-10-650-900.STEP',
    '2020-12-22T03:16:41',
    ( '' ),
    ( '' ),
    'SwSTEP 2.0',
    'SolidWorks 2020',
    '' );
FILE_SCHEMA (( 'CONFIG_CONTROL_DESIGN' ));
ENDSEC;

DATA;
#1 = FACE_OUTER_BOUND ( 'NONE', #247, .T. ) ;
#2 = DIRECTION ( 'NONE',  ( 0.000000000000000000, -0.000000000000000000, 1.000000000000000000 ) ) ;
#3 = APPROVAL_STATUS ( 'not_yet_approved' ) ;
#4 = CARTESIAN_POINT ( 'NONE',  ( 5.000000000000002665, 5.000000000000000000, -5.000000000000000000 ) ) ;
#5 = VECTOR ( 'NONE', #105, 1000.000000000000000 ) ;
#6 = PERSON ( 'UNSPECIFIED', 'UNSPECIFIED', 'UNSPECIFIED', ('UNSPECIFIED'), ('UNSPECIFIED'), ('UNSPECIFIED') ) ;
#7 = CARTESIAN_POINT ( 'NONE',  ( 5.000000000000002665, 5.000000000000000000, 5.000000000000000000 ) ) ;
#8 = EDGE_CURVE ( 'NONE', #140, #288, #40, .T. ) ;
#9 = ADVANCED_FACE ( 'NONE', ( #24 ), #221, .T. ) ;
#10 = VECTOR ( 'NONE', #98, 1000.000000000000000 ) ;
#11 = APPLICATION_CONTEXT ( 'configuration controlled 3d designs of mechanical parts and assemblies' ) ;
#12 = VERTEX_POINT ( 'NONE', #47 ) ;
#13 = DIRECTION ( 'NONE',  ( 2.220446049250313081E-16, 1.000000000000000000, 0.000000000000000000 ) ) ;
#14 = DESIGN_CONTEXT ( 'detailed design', #11, 'design' ) ;
#15 = PRODUCT_DEFINITION ( 'UNKNOWN', '', #313, #14 ) ;
#16 = DIRECTION ( 'NONE',  ( -0.000000000000000000, -0.000000000000000000, -1.000000000000000000 ) ) ;
#17 = AXIS2_PLACEMENT_3D ( 'NONE', #305, #207, #158 ) ;
#18 = VERTEX_POINT ( 'NONE', #165 ) ;
#19 = FACE_OUTER_BOUND ( 'NONE', #95, .T. ) ;
#20 =( NAMED_UNIT ( * ) SI_UNIT ( $, .STERADIAN. ) SOLID_ANGLE_UNIT ( ) );
#21 = ORIENTED_EDGE ( 'NONE', *, *, #219, .T. ) ;
#22 = DIRECTION ( 'NONE',  ( 0.000000000000000000, 1.000000000000000000, 0.000000000000000000 ) ) ;
#23 = VERTEX_POINT ( 'NONE', #141 ) ;
#24 = FACE_OUTER_BOUND ( 'NONE', #239, .T. ) ;
#25 = AXIS2_PLACEMENT_3D ( 'NONE', #192, #315, #226 ) ;
#26 = PERSON_AND_ORGANIZATION ( #6, #236 ) ;
#27 = DIRECTION ( 'NONE',  ( -0.000000000000000000, 0.000000000000000000, 1.000000000000000000 ) ) ;
#28 = CARTESIAN_POINT ( 'NONE',  ( 5.000000000000000888, 5.000000000000001776, -5.000000000000000000 ) ) ;
#29 = CALENDAR_DATE ( 2020, 22, 12 ) ;
#30 = EDGE_CURVE ( 'NONE', #241, #288, #68, .T. ) ;
#31 = DIRECTION ( 'NONE',  ( 1.734723475976807094E-16, 1.000000000000000000, -0.000000000000000000 ) ) ;
#32 = DATE_AND_TIME ( #255, #112 ) ;
#33 = DIRECTION ( 'NONE',  ( 2.220446049250313081E-16, 1.000000000000000000, 0.000000000000000000 ) ) ;
#34 = VECTOR ( 'NONE', #33, 1000.000000000000000 ) ;
#35 = CARTESIAN_POINT ( 'NONE',  ( 5.000000000000002665, 5.000000000000000000, 5.000000000000000000 ) ) ;
#36 = CC_DESIGN_PERSON_AND_ORGANIZATION_ASSIGNMENT ( #273, #127, ( #313 ) ) ;
#37 = VECTOR ( 'NONE', #256, 1000.000000000000000 ) ;
#38 = CC_DESIGN_APPROVAL ( #113, ( #15 ) ) ;
#39 = VERTEX_POINT ( 'NONE', #194 ) ;
#40 = LINE ( 'NONE', #143, #311 ) ;
#41 = ORIENTED_EDGE ( 'NONE', *, *, #233, .T. ) ;
#42 = FACE_OUTER_BOUND ( 'NONE', #308, .T. ) ;
#43 = ORIENTED_EDGE ( 'NONE', *, *, #8, .F. ) ;
#44 =( NAMED_UNIT ( * ) PLANE_ANGLE_UNIT ( ) SI_UNIT ( $, .RADIAN. ) );
#45 = VECTOR ( 'NONE', #64, 1000.000000000000000 ) ;
#46 = EDGE_CURVE ( 'NONE', #75, #123, #202, .T. ) ;
#47 = CARTESIAN_POINT ( 'NONE',  ( -5.000000000000000888, -4.999999999999998224, 5.000000000000000000 ) ) ;
#48 = EDGE_LOOP ( 'NONE', ( #163, #93, #66, #166 ) ) ;
#49 = APPROVAL ( #222, 'UNSPECIFIED' ) ;
#50 = DIRECTION ( 'NONE',  ( 1.000000000000000000, -4.857225732735059864E-17, 0.000000000000000000 ) ) ;
#51 = FACE_OUTER_BOUND ( 'NONE', #237, .T. ) ;
#52 = DATE_TIME_ROLE ( 'creation_date' ) ;
#53 = LINE ( 'NONE', #57, #250 ) ;
#54 = DIRECTION ( 'NONE',  ( 2.220446049250313081E-16, 1.000000000000000000, 0.000000000000000000 ) ) ;
#55 = CC_DESIGN_PERSON_AND_ORGANIZATION_ASSIGNMENT ( #319, #205, ( #15 ) ) ;
#56 = APPROVAL_STATUS ( 'not_yet_approved' ) ;
#57 = CARTESIAN_POINT ( 'NONE',  ( 5.000000000000002665, 5.000000000000000000, 5.000000000000000000 ) ) ;
#58 = CARTESIAN_POINT ( 'NONE',  ( 0.000000000000000000, 0.000000000000000000, 0.000000000000000000 ) ) ;
#59 = COORDINATED_UNIVERSAL_TIME_OFFSET ( 8, 0, .AHEAD. ) ;
#60 = DIRECTION ( 'NONE',  ( -0.000000000000000000, 0.000000000000000000, -1.000000000000000000 ) ) ;
#61 = AXIS2_PLACEMENT_3D ( 'NONE', #58, #122, #268 ) ;
#62 = APPROVAL_PERSON_ORGANIZATION ( #26, #113, #101 ) ;
#63 = ORIENTED_EDGE ( 'NONE', *, *, #219, .F. ) ;
#64 = DIRECTION ( 'NONE',  ( 1.000000000000000000, 0.000000000000000000, 0.000000000000000000 ) ) ;
#65 = PLANE ( 'NONE',  #72 ) ;
#66 = ORIENTED_EDGE ( 'NONE', *, *, #297, .F. ) ;
#67 = MANIFOLD_SOLID_BREP ( '¾µÏ', #135 ) ;
#68 = LINE ( 'NONE', #287, #234 ) ;
#69 = ORIENTED_EDGE ( 'NONE', *, *, #118, .F. ) ;
#70 = CARTESIAN_POINT ( 'NONE',  ( 5.000000000000000888, -5.000000000000000000, 5.000000000000000000 ) ) ;
#71 = DIRECTION ( 'NONE',  ( 1.734723475976807094E-16, 1.000000000000000000, -0.000000000000000000 ) ) ;
#72 = AXIS2_PLACEMENT_3D ( 'NONE', #242, #285, #13 ) ;
#73 = ORIENTED_EDGE ( 'NONE', *, *, #191, .F. ) ;
#74 = COORDINATED_UNIVERSAL_TIME_OFFSET ( 8, 0, .AHEAD. ) ;
#75 = VERTEX_POINT ( 'NONE', #70 ) ;
#76 = MECHANICAL_CONTEXT ( 'NONE', #254, 'mechanical' ) ;
#77 = PERSON_AND_ORGANIZATION ( #6, #236 ) ;
#78 = FACE_OUTER_BOUND ( 'NONE', #220, .T. ) ;
#79 = DIRECTION ( 'NONE',  ( 1.000000000000000000, 0.000000000000000000, 0.000000000000000000 ) ) ;
#80 = PERSON_AND_ORGANIZATION_ROLE ( 'classification_officer' ) ;
#81 = PLANE ( 'NONE',  #175 ) ;
#82 = CC_DESIGN_PERSON_AND_ORGANIZATION_ASSIGNMENT ( #77, #271, ( #180 ) ) ;
#83 = CALENDAR_DATE ( 2020, 22, 12 ) ;
#84 = CARTESIAN_POINT ( 'NONE',  ( 5.000000000000002665, 5.000000000000000000, -5.000000000000000000 ) ) ;
#85 = DIRECTION ( 'NONE',  ( -1.000000000000000000, 1.734723475976807094E-16, 0.000000000000000000 ) ) ;
#86 = VECTOR ( 'NONE', #259, 1000.000000000000000 ) ;
#87 = VECTOR ( 'NONE', #79, 1000.000000000000000 ) ;
#88 = VERTEX_POINT ( 'NONE', #320 ) ;
#89 = ORIENTED_EDGE ( 'NONE', *, *, #210, .T. ) ;
#90 = CC_DESIGN_PERSON_AND_ORGANIZATION_ASSIGNMENT ( #106, #206, ( #313 ) ) ;
#91 = LINE ( 'NONE', #218, #10 ) ;
#92 = DIRECTION ( 'NONE',  ( -4.857225732735059864E-17, -1.000000000000000000, 0.000000000000000000 ) ) ;
#93 = ORIENTED_EDGE ( 'NONE', *, *, #46, .F. ) ;
#94 = ORIENTED_EDGE ( 'NONE', *, *, #136, .F. ) ;
#95 = EDGE_LOOP ( 'NONE', ( #147, #265, #307, #121 ) ) ;
#96 = PERSON_AND_ORGANIZATION ( #6, #236 ) ;
#97 = AXIS2_PLACEMENT_3D ( 'NONE', #318, #126, #224 ) ;
#98 = DIRECTION ( 'NONE',  ( -0.000000000000000000, 0.000000000000000000, -1.000000000000000000 ) ) ;
#99 = CARTESIAN_POINT ( 'NONE',  ( -5.000000000000000888, -4.999999999999998224, -5.000000000000000000 ) ) ;
#100 = CARTESIAN_POINT ( 'NONE',  ( -4.999999999999999112, 5.000000000000001776, -5.000000000000000000 ) ) ;
#101 = APPROVAL_ROLE ( '' ) ;
#102 = EDGE_CURVE ( 'NONE', #88, #18, #189, .T. ) ;
#103 = CARTESIAN_POINT ( 'NONE',  ( 0.000000000000000000, 0.000000000000000000, -5.000000000000000000 ) ) ;
#104 = PRODUCT_DEFINITION_SHAPE ( 'NONE', 'NONE',  #15 ) ;
#105 = DIRECTION ( 'NONE',  ( -0.7071067811865475727, -0.7071067811865474617, 0.000000000000000000 ) ) ;
#106 = PERSON_AND_ORGANIZATION ( #6, #236 ) ;
#107 = CC_DESIGN_DATE_AND_TIME_ASSIGNMENT ( #225, #280, ( #177 ) ) ;
#108 = DIRECTION ( 'NONE',  ( -0.000000000000000000, -0.000000000000000000, -1.000000000000000000 ) ) ;
#109 = AXIS2_PLACEMENT_3D ( 'NONE', #103, #27, #278 ) ;
#110 = ADVANCED_FACE ( 'NONE', ( #167 ), #65, .F. ) ;
#111 = VECTOR ( 'NONE', #208, 1000.000000000000000 ) ;
#112 = LOCAL_TIME ( 11, 16, 41.00000000000000000, #59 ) ;
#113 = APPROVAL ( #3, 'UNSPECIFIED' ) ;
#114 = APPROVAL ( #56, 'UNSPECIFIED' ) ;
#115 = AXIS2_PLACEMENT_3D ( 'NONE', #7, #172, #198 ) ;
#116 = LINE ( 'NONE', #168, #45 ) ;
#117 = ORIENTED_EDGE ( 'NONE', *, *, #282, .T. ) ;
#118 = EDGE_CURVE ( 'NONE', #18, #123, #116, .T. ) ;
#119 = PLANE ( 'NONE',  #161 ) ;
#120 = ORIENTED_EDGE ( 'NONE', *, *, #178, .T. ) ;
#121 = ORIENTED_EDGE ( 'NONE', *, *, #8, .T. ) ;
#122 = DIRECTION ( 'NONE',  ( 0.000000000000000000, 0.000000000000000000, 1.000000000000000000 ) ) ;
#123 = VERTEX_POINT ( 'NONE', #213 ) ;
#124 = DIRECTION ( 'NONE',  ( 0.000000000000000000, -0.000000000000000000, 1.000000000000000000 ) ) ;
#125 = VECTOR ( 'NONE', #170, 1000.000000000000000 ) ;
#126 = DIRECTION ( 'NONE',  ( -0.000000000000000000, 0.000000000000000000, 1.000000000000000000 ) ) ;
#127 = PERSON_AND_ORGANIZATION_ROLE ( 'design_supplier' ) ;
#128 = ADVANCED_FACE ( 'NONE', ( #19 ), #119, .F. ) ;
#129 = LINE ( 'NONE', #281, #258 ) ;
#130 = DATE_AND_TIME ( #199, #284 ) ;
#131 = PRODUCT_RELATED_PRODUCT_CATEGORY ( 'detail', '', ( #180 ) ) ;
#132 = PLANE ( 'NONE',  #17 ) ;
#133 = APPROVAL_DATE_TIME ( #32, #114 ) ;
#134 = FACE_OUTER_BOUND ( 'NONE', #145, .T. ) ;
#135 = CLOSED_SHELL ( 'NONE', ( #200, #138, #128, #262, #110 ) ) ;
#136 = EDGE_CURVE ( 'NONE', #12, #39, #91, .T. ) ;
#137 = APPROVAL_PERSON_ORGANIZATION ( #321, #114, #253 ) ;
#138 = ADVANCED_FACE ( 'NONE', ( #42 ), #295, .F. ) ;
#139 = ORIENTED_EDGE ( 'NONE', *, *, #304, .T. ) ;
#140 = VERTEX_POINT ( 'NONE', #151 ) ;
#141 = CARTESIAN_POINT ( 'NONE',  ( 5.000000000000002665, 5.000000000000000000, 5.000000000000000000 ) ) ;
#142 = VERTEX_POINT ( 'NONE', #251 ) ;
#143 = CARTESIAN_POINT ( 'NONE',  ( 5.000000000000000888, 5.000000000000001776, 5.000000000000000000 ) ) ;
#144 = CARTESIAN_POINT ( 'NONE',  ( 0.000000000000000000, 0.000000000000000000, 5.000000000000000000 ) ) ;
#145 = EDGE_LOOP ( 'NONE', ( #245, #193, #291, #120 ) ) ;
#146 = PLANE ( 'NONE',  #215 ) ;
#147 = ORIENTED_EDGE ( 'NONE', *, *, #30, .F. ) ;
#148 = CARTESIAN_POINT ( 'NONE',  ( 5.000000000000000888, -5.000000000000000000, 5.000000000000000000 ) ) ;
#149 = CARTESIAN_POINT ( 'NONE',  ( 5.000000000000002665, 5.000000000000000000, 5.000000000000000000 ) ) ;
#150 = COORDINATED_UNIVERSAL_TIME_OFFSET ( 8, 0, .AHEAD. ) ;
#151 = CARTESIAN_POINT ( 'NONE',  ( 5.000000000000000888, 5.000000000000001776, 5.000000000000000000 ) ) ;
#152 = FACE_OUTER_BOUND ( 'NONE', #48, .T. ) ;
#153 = APPROVAL_ROLE ( '' ) ;
#154 = FACE_OUTER_BOUND ( 'NONE', #240, .T. ) ;
#155 = LINE ( 'NONE', #298, #87 ) ;
#156 = DATE_AND_TIME ( #83, #162 ) ;
#157 = LINE ( 'NONE', #99, #34 ) ;
#158 = DIRECTION ( 'NONE',  ( 0.7071067811865475727, 0.7071067811865474617, 0.000000000000000000 ) ) ;
#159 = VECTOR ( 'NONE', #275, 1000.000000000000000 ) ;
#160 = ADVANCED_FACE ( 'NONE', ( #1 ), #81, .F. ) ;
#161 = AXIS2_PLACEMENT_3D ( 'NONE', #269, #92, #310 ) ;
#162 = LOCAL_TIME ( 11, 16, 41.00000000000000000, #74 ) ;
#163 = ORIENTED_EDGE ( 'NONE', *, *, #118, .T. ) ;
#164 = CLOSED_SHELL ( 'NONE', ( #235, #267, #160, #9, #186 ) ) ;
#165 = CARTESIAN_POINT ( 'NONE',  ( -4.999999999999999112, -5.000000000000000000, -5.000000000000000000 ) ) ;
#166 = ORIENTED_EDGE ( 'NONE', *, *, #102, .T. ) ;
#167 = FACE_OUTER_BOUND ( 'NONE', #289, .T. ) ;
#168 = CARTESIAN_POINT ( 'NONE',  ( -4.999999999999999112, -5.000000000000000000, -5.000000000000000000 ) ) ;
#169 = ORIENTED_EDGE ( 'NONE', *, *, #209, .F. ) ;
#170 = DIRECTION ( 'NONE',  ( -0.000000000000000000, -0.000000000000000000, -1.000000000000000000 ) ) ;
#171 = DATE_AND_TIME ( #29, #223 ) ;
#172 = DIRECTION ( 'NONE',  ( 0.7071067811865474617, -0.7071067811865475727, 0.000000000000000000 ) ) ;
#173 =( LENGTH_UNIT ( ) NAMED_UNIT ( * ) SI_UNIT ( .MILLI., .METRE. ) );
#174 = COORDINATED_UNIVERSAL_TIME_OFFSET ( 8, 0, .AHEAD. ) ;
#175 = AXIS2_PLACEMENT_3D ( 'NONE', #35, #85, #203 ) ;
#176 = CARTESIAN_POINT ( 'NONE',  ( 5.000000000000000888, 5.000000000000001776, 5.000000000000000000 ) ) ;
#177 = SECURITY_CLASSIFICATION ( '', '', #179 ) ;
#178 = EDGE_CURVE ( 'NONE', #23, #195, #53, .T. ) ;
#179 = SECURITY_CLASSIFICATION_LEVEL ( 'unclassified' ) ;
#180 = PRODUCT ( 'BK7-BSC-10-650-900', 'BK7-BSC-10-650-900', '', ( #76 ) ) ;
#181 = MANIFOLD_SOLID_BREP ( 'Í¹Ì¨-À', #164 ) ;
#182 = CARTESIAN_POINT ( 'NONE',  ( 5.000000000000002665, 5.000000000000000000, 5.000000000000000000 ) ) ;
#183 = PLANE ( 'NONE',  #109 ) ;
#184 =( GEOMETRIC_REPRESENTATION_CONTEXT ( 3 ) GLOBAL_UNCERTAINTY_ASSIGNED_CONTEXT ( ( #212 ) ) GLOBAL_UNIT_ASSIGNED_CONTEXT ( ( #173, #44, #20 ) ) REPRESENTATION_CONTEXT ( 'NONE', 'WORKASPACE' ) );
#185 = APPROVAL_PERSON_ORGANIZATION ( #96, #49, #153 ) ;
#186 = ADVANCED_FACE ( 'NONE', ( #154 ), #183, .F. ) ;
#187 = EDGE_CURVE ( 'NONE', #75, #23, #301, .T. ) ;
#188 = CC_DESIGN_APPROVAL ( #114, ( #177 ) ) ;
#189 = LINE ( 'NONE', #314, #211 ) ;
#190 = ORIENTED_EDGE ( 'NONE', *, *, #30, .T. ) ;
#191 = EDGE_CURVE ( 'NONE', #140, #12, #229, .T. ) ;
#192 = CARTESIAN_POINT ( 'NONE',  ( -5.000000000000000888, -4.999999999999998224, 5.000000000000000000 ) ) ;
#193 = ORIENTED_EDGE ( 'NONE', *, *, #102, .F. ) ;
#194 = CARTESIAN_POINT ( 'NONE',  ( -5.000000000000000888, -4.999999999999998224, -5.000000000000000000 ) ) ;
#195 = VERTEX_POINT ( 'NONE', #4 ) ;
#196 = ADVANCED_BREP_SHAPE_REPRESENTATION ( 'BK7-BSC-10-650-900', ( #181, #67, #61 ), #184 ) ;
#197 = ORIENTED_EDGE ( 'NONE', *, *, #187, .T. ) ;
#198 = DIRECTION ( 'NONE',  ( 0.7071067811865475727, 0.7071067811865474617, 0.000000000000000000 ) ) ;
#199 = CALENDAR_DATE ( 2020, 22, 12 ) ;
#200 = ADVANCED_FACE ( 'NONE', ( #78 ), #132, .F. ) ;
#201 = VECTOR ( 'NONE', #243, 1000.000000000000000 ) ;
#202 = LINE ( 'NONE', #148, #125 ) ;
#203 = DIRECTION ( 'NONE',  ( -1.734723475976807094E-16, -1.000000000000000000, 0.000000000000000000 ) ) ;
#204 = CARTESIAN_POINT ( 'NONE',  ( -5.000000000000000888, -4.999999999999998224, 5.000000000000000000 ) ) ;
#205 = PERSON_AND_ORGANIZATION_ROLE ( 'creator' ) ;
#206 = PERSON_AND_ORGANIZATION_ROLE ( 'creator' ) ;
#207 = DIRECTION ( 'NONE',  ( -0.7071067811865474617, 0.7071067811865475727, 0.000000000000000000 ) ) ;
#208 = DIRECTION ( 'NONE',  ( -0.7071067811865475727, -0.7071067811865474617, 0.000000000000000000 ) ) ;
#209 = EDGE_CURVE ( 'NONE', #195, #18, #303, .T. ) ;
#210 = EDGE_CURVE ( 'NONE', #142, #241, #129, .T. ) ;
#211 = VECTOR ( 'NONE', #16, 1000.000000000000000 ) ;
#212 = UNCERTAINTY_MEASURE_WITH_UNIT (LENGTH_MEASURE( 1.000000000000000082E-05 ), #173, 'distance_accuracy_value', 'NONE');
#213 = CARTESIAN_POINT ( 'NONE',  ( 5.000000000000000888, -5.000000000000000000, -5.000000000000000000 ) ) ;
#214 = ORIENTED_EDGE ( 'NONE', *, *, #136, .T. ) ;
#215 = AXIS2_PLACEMENT_3D ( 'NONE', #292, #22, #124 ) ;
#216 = DIRECTION ( 'NONE',  ( -0.000000000000000000, 0.000000000000000000, -1.000000000000000000 ) ) ;
#217 = ORIENTED_EDGE ( 'NONE', *, *, #238, .F. ) ;
#218 = CARTESIAN_POINT ( 'NONE',  ( -5.000000000000000888, -4.999999999999998224, 5.000000000000000000 ) ) ;
#219 = EDGE_CURVE ( 'NONE', #288, #39, #283, .T. ) ;
#220 = EDGE_LOOP ( 'NONE', ( #63, #43, #263, #214 ) ) ;
#221 = PLANE ( 'NONE',  #97 ) ;
#222 = APPROVAL_STATUS ( 'not_yet_approved' ) ;
#223 = LOCAL_TIME ( 11, 16, 41.00000000000000000, #228 ) ;
#224 = DIRECTION ( 'NONE',  ( 1.000000000000000000, 0.000000000000000000, 0.000000000000000000 ) ) ;
#225 = DATE_AND_TIME ( #293, #294 ) ;
#226 = DIRECTION ( 'NONE',  ( 0.000000000000000000, 0.000000000000000000, 1.000000000000000000 ) ) ;
#227 = PLANE ( 'NONE',  #231 ) ;
#228 = COORDINATED_UNIVERSAL_TIME_OFFSET ( 8, 0, .AHEAD. ) ;
#229 = LINE ( 'NONE', #176, #111 ) ;
#230 = SHAPE_DEFINITION_REPRESENTATION ( #104, #196 ) ;
#231 = AXIS2_PLACEMENT_3D ( 'NONE', #144, #2, #54 ) ;
#232 = PLANE ( 'NONE',  #115 ) ;
#233 = EDGE_CURVE ( 'NONE', #39, #241, #157, .T. ) ;
#234 = VECTOR ( 'NONE', #50, 1000.000000000000000 ) ;
#235 = ADVANCED_FACE ( 'NONE', ( #134 ), #232, .F. ) ;
#236 = ORGANIZATION ( 'UNSPECIFIED', 'UNSPECIFIED', '' ) ;
#237 = EDGE_LOOP ( 'NONE', ( #73, #272, #217 ) ) ;
#238 = EDGE_CURVE ( 'NONE', #12, #142, #246, .T. ) ;
#239 = EDGE_LOOP ( 'NONE', ( #117, #244, #197 ) ) ;
#240 = EDGE_LOOP ( 'NONE', ( #169, #312, #69 ) ) ;
#241 = VERTEX_POINT ( 'NONE', #100 ) ;
#242 = CARTESIAN_POINT ( 'NONE',  ( 0.000000000000000000, 0.000000000000000000, -5.000000000000000000 ) ) ;
#243 = DIRECTION ( 'NONE',  ( 1.000000000000000000, -4.857225732735059864E-17, 0.000000000000000000 ) ) ;
#244 = ORIENTED_EDGE ( 'NONE', *, *, #297, .T. ) ;
#245 = ORIENTED_EDGE ( 'NONE', *, *, #209, .T. ) ;
#246 = LINE ( 'NONE', #204, #159 ) ;
#247 = EDGE_LOOP ( 'NONE', ( #139, #286, #264, #317 ) ) ;
#248 = CARTESIAN_POINT ( 'NONE',  ( 5.000000000000002665, 5.000000000000000000, -5.000000000000000000 ) ) ;
#249 = APPROVAL_DATE_TIME ( #130, #113 ) ;
#250 = VECTOR ( 'NONE', #108, 1000.000000000000000 ) ;
#251 = CARTESIAN_POINT ( 'NONE',  ( -4.999999999999999112, 5.000000000000001776, 5.000000000000000000 ) ) ;
#252 = CARTESIAN_POINT ( 'NONE',  ( 5.000000000000000888, 5.000000000000001776, 5.000000000000000000 ) ) ;
#253 = APPROVAL_ROLE ( '' ) ;
#254 = APPLICATION_CONTEXT ( 'configuration controlled 3d designs of mechanical parts and assemblies' ) ;
#255 = CALENDAR_DATE ( 2020, 22, 12 ) ;
#256 = DIRECTION ( 'NONE',  ( -0.7071067811865475727, -0.7071067811865474617, 0.000000000000000000 ) ) ;
#257 = EDGE_CURVE ( 'NONE', #142, #140, #270, .T. ) ;
#258 = VECTOR ( 'NONE', #60, 1000.000000000000000 ) ;
#259 = DIRECTION ( 'NONE',  ( -0.7071067811865475727, -0.7071067811865474617, 0.000000000000000000 ) ) ;
#260 = CC_DESIGN_SECURITY_CLASSIFICATION ( #177, ( #313 ) ) ;
#261 = VECTOR ( 'NONE', #71, 1000.000000000000000 ) ;
#262 = ADVANCED_FACE ( 'NONE', ( #51 ), #227, .T. ) ;
#263 = ORIENTED_EDGE ( 'NONE', *, *, #191, .T. ) ;
#264 = ORIENTED_EDGE ( 'NONE', *, *, #187, .F. ) ;
#265 = ORIENTED_EDGE ( 'NONE', *, *, #210, .F. ) ;
#266 = ORIENTED_EDGE ( 'NONE', *, *, #238, .T. ) ;
#267 = ADVANCED_FACE ( 'NONE', ( #152 ), #146, .F. ) ;
#268 = DIRECTION ( 'NONE',  ( 1.000000000000000000, 0.000000000000000000, 0.000000000000000000 ) ) ;
#269 = CARTESIAN_POINT ( 'NONE',  ( 5.000000000000000888, 5.000000000000001776, 5.000000000000000000 ) ) ;
#270 = LINE ( 'NONE', #252, #201 ) ;
#271 = PERSON_AND_ORGANIZATION_ROLE ( 'design_owner' ) ;
#272 = ORIENTED_EDGE ( 'NONE', *, *, #257, .F. ) ;
#273 = PERSON_AND_ORGANIZATION ( #6, #236 ) ;
#274 = CARTESIAN_POINT ( 'NONE',  ( 5.000000000000000888, 5.000000000000001776, -5.000000000000000000 ) ) ;
#275 = DIRECTION ( 'NONE',  ( 2.220446049250313081E-16, 1.000000000000000000, 0.000000000000000000 ) ) ;
#276 = PERSON_AND_ORGANIZATION ( #6, #236 ) ;
#277 = VECTOR ( 'NONE', #31, 1000.000000000000000 ) ;
#278 = DIRECTION ( 'NONE',  ( 1.000000000000000000, 0.000000000000000000, 0.000000000000000000 ) ) ;
#279 = LINE ( 'NONE', #149, #5 ) ;
#280 = DATE_TIME_ROLE ( 'classification_date' ) ;
#281 = CARTESIAN_POINT ( 'NONE',  ( -4.999999999999999112, 5.000000000000001776, 5.000000000000000000 ) ) ;
#282 = EDGE_CURVE ( 'NONE', #23, #88, #279, .T. ) ;
#283 = LINE ( 'NONE', #274, #86 ) ;
#284 = LOCAL_TIME ( 11, 16, 41.00000000000000000, #150 ) ;
#285 = DIRECTION ( 'NONE',  ( 0.000000000000000000, -0.000000000000000000, 1.000000000000000000 ) ) ;
#286 = ORIENTED_EDGE ( 'NONE', *, *, #178, .F. ) ;
#287 = CARTESIAN_POINT ( 'NONE',  ( 5.000000000000000888, 5.000000000000001776, -5.000000000000000000 ) ) ;
#288 = VERTEX_POINT ( 'NONE', #28 ) ;
#289 = EDGE_LOOP ( 'NONE', ( #21, #41, #190 ) ) ;
#290 = ORIENTED_EDGE ( 'NONE', *, *, #233, .F. ) ;
#291 = ORIENTED_EDGE ( 'NONE', *, *, #282, .F. ) ;
#292 = CARTESIAN_POINT ( 'NONE',  ( -4.999999999999999112, -5.000000000000000000, 5.000000000000000000 ) ) ;
#293 = CALENDAR_DATE ( 2020, 22, 12 ) ;
#294 = LOCAL_TIME ( 11, 16, 41.00000000000000000, #174 ) ;
#295 = PLANE ( 'NONE',  #25 ) ;
#296 = APPLICATION_PROTOCOL_DEFINITION ( 'international standard', 'config_control_design', 1994, #11 ) ;
#297 = EDGE_CURVE ( 'NONE', #88, #75, #155, .T. ) ;
#298 = CARTESIAN_POINT ( 'NONE',  ( -4.999999999999999112, -5.000000000000000000, 5.000000000000000000 ) ) ;
#299 = APPROVAL_DATE_TIME ( #156, #49 ) ;
#300 = CC_DESIGN_PERSON_AND_ORGANIZATION_ASSIGNMENT ( #276, #80, ( #177 ) ) ;
#301 = LINE ( 'NONE', #182, #277 ) ;
#302 = LINE ( 'NONE', #248, #261 ) ;
#303 = LINE ( 'NONE', #84, #37 ) ;
#304 = EDGE_CURVE ( 'NONE', #123, #195, #302, .T. ) ;
#305 = CARTESIAN_POINT ( 'NONE',  ( 5.000000000000000888, 5.000000000000001776, 5.000000000000000000 ) ) ;
#306 = CC_DESIGN_APPROVAL ( #49, ( #313 ) ) ;
#307 = ORIENTED_EDGE ( 'NONE', *, *, #257, .T. ) ;
#308 = EDGE_LOOP ( 'NONE', ( #290, #94, #266, #89 ) ) ;
#309 = CC_DESIGN_DATE_AND_TIME_ASSIGNMENT ( #171, #52, ( #15 ) ) ;
#310 = DIRECTION ( 'NONE',  ( -1.000000000000000000, 4.857225732735059864E-17, 0.000000000000000000 ) ) ;
#311 = VECTOR ( 'NONE', #216, 1000.000000000000000 ) ;
#312 = ORIENTED_EDGE ( 'NONE', *, *, #304, .F. ) ;
#313 = PRODUCT_DEFINITION_FORMATION_WITH_SPECIFIED_SOURCE ( 'ANY', '', #180, .NOT_KNOWN. ) ;
#314 = CARTESIAN_POINT ( 'NONE',  ( -4.999999999999999112, -5.000000000000000000, 5.000000000000000000 ) ) ;
#315 = DIRECTION ( 'NONE',  ( 1.000000000000000000, -2.220446049250313081E-16, 0.000000000000000000 ) ) ;
#316 = APPLICATION_PROTOCOL_DEFINITION ( 'international standard', 'config_control_design', 1994, #254 ) ;
#317 = ORIENTED_EDGE ( 'NONE', *, *, #46, .T. ) ;
#318 = CARTESIAN_POINT ( 'NONE',  ( 0.000000000000000000, 0.000000000000000000, 5.000000000000000000 ) ) ;
#319 = PERSON_AND_ORGANIZATION ( #6, #236 ) ;
#320 = CARTESIAN_POINT ( 'NONE',  ( -4.999999999999999112, -5.000000000000000000, 5.000000000000000000 ) ) ;
#321 = PERSON_AND_ORGANIZATION ( #6, #236 ) ;
ENDSEC;
END-ISO-10303-21;
